ISO-10303-21;
HEADER;
FILE_DESCRIPTION (( 'STEP AP203' ),
    '1' );
FILE_NAME ('BK7-NPBSC-12.7-700-1000.STEP',
    '2020-12-22T02:10:16',
    ( '' ),
    ( '' ),
    'SwSTEP 2.0',
    'SolidWorks 2020',
    '' );
FILE_SCHEMA (( 'CONFIG_CONTROL_DESIGN' ));
ENDSEC;

DATA;
#1 = LINE ( 'NONE', #255, #244 ) ;
#2 = EDGE_LOOP ( 'NONE', ( #248, #124, #207, #99 ) ) ;
#3 = EDGE_CURVE ( 'NONE', #205, #188, #199, .T. ) ;
#4 = VECTOR ( 'NONE', #110, 1000.000000000000000 ) ;
#5 = ORIENTED_EDGE ( 'NONE', *, *, #3, .T. ) ;
#6 = PERSON_AND_ORGANIZATION ( #84, #242 ) ;
#7 = ORIENTED_EDGE ( 'NONE', *, *, #209, .F. ) ;
#8 = DIRECTION ( 'NONE',  ( 0.000000000000000000, 0.000000000000000000, -1.000000000000000000 ) ) ;
#9 = DIRECTION ( 'NONE',  ( 0.000000000000000000, 0.000000000000000000, 1.000000000000000000 ) ) ;
#10 = LINE ( 'NONE', #109, #61 ) ;
#11 = APPROVAL ( #226, 'UNSPECIFIED' ) ;
#12 = FACE_OUTER_BOUND ( 'NONE', #318, .T. ) ;
#13 = CARTESIAN_POINT ( 'NONE',  ( -6.349999999999999645, -6.350000000000000533, 6.349999999999999645 ) ) ;
#14 = LOCAL_TIME ( 10, 10, 16.00000000000000000, #151 ) ;
#15 = CARTESIAN_POINT ( 'NONE',  ( 6.349999999999998757, 6.349999999999998757, -6.349999999999999645 ) ) ;
#16 = VECTOR ( 'NONE', #95, 1000.000000000000000 ) ;
#17 =( NAMED_UNIT ( * ) PLANE_ANGLE_UNIT ( ) SI_UNIT ( $, .RADIAN. ) );
#18 = ADVANCED_FACE ( 'NONE', ( #74 ), #147, .F. ) ;
#19 = ORIENTED_EDGE ( 'NONE', *, *, #117, .T. ) ;
#20 = EDGE_CURVE ( 'NONE', #188, #203, #252, .T. ) ;
#21 = DIRECTION ( 'NONE',  ( -0.7071067811865475727, -0.7071067811865475727, 0.000000000000000000 ) ) ;
#22 = DIRECTION ( 'NONE',  ( -0.000000000000000000, 0.000000000000000000, 1.000000000000000000 ) ) ;
#23 = ORIENTED_EDGE ( 'NONE', *, *, #117, .F. ) ;
#24 = CC_DESIGN_APPROVAL ( #11, ( #290 ) ) ;
#25 = DIRECTION ( 'NONE',  ( -0.7071067811865475727, 0.7071067811865475727, 0.000000000000000000 ) ) ;
#26 = CARTESIAN_POINT ( 'NONE',  ( 6.349999999999996980, 6.349999999999996980, 6.349999999999999645 ) ) ;
#27 = EDGE_CURVE ( 'NONE', #121, #193, #1, .T. ) ;
#28 = COORDINATED_UNIVERSAL_TIME_OFFSET ( 8, 0, .AHEAD. ) ;
#29 = ORIENTED_EDGE ( 'NONE', *, *, #162, .F. ) ;
#30 = PERSON_AND_ORGANIZATION ( #84, #242 ) ;
#31 = DATE_TIME_ROLE ( 'creation_date' ) ;
#32 = ORIENTED_EDGE ( 'NONE', *, *, #135, .F. ) ;
#33 = ORIENTED_EDGE ( 'NONE', *, *, #129, .T. ) ;
#34 = DIRECTION ( 'NONE',  ( 0.000000000000000000, 0.000000000000000000, 1.000000000000000000 ) ) ;
#35 = UNCERTAINTY_MEASURE_WITH_UNIT (LENGTH_MEASURE( 1.000000000000000082E-05 ), #141, 'distance_accuracy_value', 'NONE');
#36 = CARTESIAN_POINT ( 'NONE',  ( -6.349999999999998757, -6.349999999999997868, 6.349999999999999645 ) ) ;
#37 = DIRECTION ( 'NONE',  ( 0.000000000000000000, 1.000000000000000000, 0.000000000000000000 ) ) ;
#38 = PRODUCT_RELATED_PRODUCT_CATEGORY ( 'detail', '', ( #221 ) ) ;
#39 = CARTESIAN_POINT ( 'NONE',  ( -6.349999999999998757, -6.349999999999997868, 6.349999999999999645 ) ) ;
#40 = CC_DESIGN_APPROVAL ( #313, ( #280 ) ) ;
#41 = PLANE ( 'NONE',  #202 ) ;
#42 = CARTESIAN_POINT ( 'NONE',  ( -6.349999999999998757, -6.349999999999997868, 6.349999999999999645 ) ) ;
#43 = DIRECTION ( 'NONE',  ( -2.903408047666378392E-16, -1.000000000000000000, 0.000000000000000000 ) ) ;
#44 = DIRECTION ( 'NONE',  ( 0.000000000000000000, 0.000000000000000000, 1.000000000000000000 ) ) ;
#45 = EDGE_CURVE ( 'NONE', #205, #54, #175, .T. ) ;
#46 = CARTESIAN_POINT ( 'NONE',  ( 6.349999999999998757, 6.349999999999998757, 6.349999999999999645 ) ) ;
#47 = PLANE ( 'NONE',  #78 ) ;
#48 = VERTEX_POINT ( 'NONE', #118 ) ;
#49 = LINE ( 'NONE', #149, #265 ) ;
#50 = EDGE_LOOP ( 'NONE', ( #153, #81, #101 ) ) ;
#51 = LOCAL_TIME ( 10, 10, 16.00000000000000000, #128 ) ;
#52 = EDGE_CURVE ( 'NONE', #127, #259, #10, .T. ) ;
#53 = PERSON_AND_ORGANIZATION_ROLE ( 'creator' ) ;
#54 = VERTEX_POINT ( 'NONE', #212 ) ;
#55 = CARTESIAN_POINT ( 'NONE',  ( 0.000000000000000000, 0.000000000000000000, 0.000000000000000000 ) ) ;
#56 = AXIS2_PLACEMENT_3D ( 'NONE', #185, #183, #208 ) ;
#57 = ORIENTED_EDGE ( 'NONE', *, *, #209, .T. ) ;
#58 = SECURITY_CLASSIFICATION_LEVEL ( 'unclassified' ) ;
#59 = CARTESIAN_POINT ( 'NONE',  ( -6.349999999999999645, -6.350000000000000533, 6.349999999999999645 ) ) ;
#60 = CC_DESIGN_DATE_AND_TIME_ASSIGNMENT ( #301, #31, ( #280 ) ) ;
#61 = VECTOR ( 'NONE', #66, 1000.000000000000114 ) ;
#62 = CARTESIAN_POINT ( 'NONE',  ( -6.349999999999999645, -6.350000000000000533, 6.349999999999999645 ) ) ;
#63 = DIRECTION ( 'NONE',  ( 1.000000000000000000, -2.220446049250312588E-16, 0.000000000000000000 ) ) ;
#64 = CARTESIAN_POINT ( 'NONE',  ( 0.000000000000000000, 0.000000000000000000, 6.349999999999999645 ) ) ;
#65 = MANIFOLD_SOLID_BREP ( '¾µÏ', #236 ) ;
#66 = DIRECTION ( 'NONE',  ( -0.7071067811865474617, -0.7071067811865474617, 0.000000000000000000 ) ) ;
#67 = CARTESIAN_POINT ( 'NONE',  ( 6.349999999999998757, 6.349999999999998757, 6.349999999999999645 ) ) ;
#68 = DESIGN_CONTEXT ( 'detailed design', #231, 'design' ) ;
#69 = CARTESIAN_POINT ( 'NONE',  ( 6.349999999999998757, 6.349999999999998757, 6.349999999999999645 ) ) ;
#70 = ADVANCED_FACE ( 'NONE', ( #12 ), #114, .F. ) ;
#71 = DIRECTION ( 'NONE',  ( -2.220446049250312588E-16, 1.000000000000000000, 0.000000000000000000 ) ) ;
#72 = VERTEX_POINT ( 'NONE', #214 ) ;
#73 = LINE ( 'NONE', #192, #16 ) ;
#74 = FACE_OUTER_BOUND ( 'NONE', #232, .T. ) ;
#75 = DIRECTION ( 'NONE',  ( -6.829619984160658046E-17, 1.000000000000000000, -0.000000000000000000 ) ) ;
#76 = DIRECTION ( 'NONE',  ( 1.000000000000000000, 0.000000000000000000, 0.000000000000000000 ) ) ;
#77 = ORIENTED_EDGE ( 'NONE', *, *, #163, .T. ) ;
#78 = AXIS2_PLACEMENT_3D ( 'NONE', #220, #164, #174 ) ;
#79 = APPROVAL_STATUS ( 'not_yet_approved' ) ;
#80 = APPROVAL_DATE_TIME ( #274, #11 ) ;
#81 = ORIENTED_EDGE ( 'NONE', *, *, #132, .T. ) ;
#82 = APPLICATION_PROTOCOL_DEFINITION ( 'international standard', 'config_control_design', 1994, #231 ) ;
#83 = MECHANICAL_CONTEXT ( 'NONE', #213, 'mechanical' ) ;
#84 = PERSON ( 'UNSPECIFIED', 'UNSPECIFIED', 'UNSPECIFIED', ('UNSPECIFIED'), ('UNSPECIFIED'), ('UNSPECIFIED') ) ;
#85 = ORIENTED_EDGE ( 'NONE', *, *, #163, .F. ) ;
#86 = CC_DESIGN_SECURITY_CLASSIFICATION ( #290, ( #113 ) ) ;
#87 = ADVANCED_FACE ( 'NONE', ( #267 ), #309, .F. ) ;
#88 = CARTESIAN_POINT ( 'NONE',  ( 6.349999999999998757, 6.349999999999998757, 6.349999999999999645 ) ) ;
#89 = DIRECTION ( 'NONE',  ( -2.220446049250312588E-16, 1.000000000000000000, 0.000000000000000000 ) ) ;
#90 = VECTOR ( 'NONE', #21, 999.9999999999998863 ) ;
#91 = DIRECTION ( 'NONE',  ( 0.7071067811865475727, -0.7071067811865475727, 0.000000000000000000 ) ) ;
#92 = CC_DESIGN_DATE_AND_TIME_ASSIGNMENT ( #227, #195, ( #290 ) ) ;
#93 = DIRECTION ( 'NONE',  ( 0.000000000000000000, 0.000000000000000000, -1.000000000000000000 ) ) ;
#94 = EDGE_LOOP ( 'NONE', ( #173, #222, #179, #19 ) ) ;
#95 = DIRECTION ( 'NONE',  ( -0.000000000000000000, -0.000000000000000000, -1.000000000000000000 ) ) ;
#96 = VECTOR ( 'NONE', #8, 1000.000000000000000 ) ;
#97 = EDGE_LOOP ( 'NONE', ( #299, #196, #57, #5 ) ) ;
#98 = APPROVAL_PERSON_ORGANIZATION ( #30, #313, #182 ) ;
#99 = ORIENTED_EDGE ( 'NONE', *, *, #187, .T. ) ;
#100 = FACE_OUTER_BOUND ( 'NONE', #2, .T. ) ;
#101 = ORIENTED_EDGE ( 'NONE', *, *, #162, .T. ) ;
#102 = PERSON_AND_ORGANIZATION_ROLE ( 'design_owner' ) ;
#103 = ORIENTED_EDGE ( 'NONE', *, *, #138, .T. ) ;
#104 = PERSON_AND_ORGANIZATION ( #84, #242 ) ;
#105 = CC_DESIGN_PERSON_AND_ORGANIZATION_ASSIGNMENT ( #258, #102, ( #221 ) ) ;
#106 = ORIENTED_EDGE ( 'NONE', *, *, #27, .T. ) ;
#107 = DATE_AND_TIME ( #154, #237 ) ;
#108 = CC_DESIGN_APPROVAL ( #263, ( #113 ) ) ;
#109 = CARTESIAN_POINT ( 'NONE',  ( 6.349999999999998757, 6.349999999999998757, 6.349999999999999645 ) ) ;
#110 = DIRECTION ( 'NONE',  ( -0.000000000000000000, -0.000000000000000000, -1.000000000000000000 ) ) ;
#111 = VECTOR ( 'NONE', #165, 1000.000000000000000 ) ;
#112 = VECTOR ( 'NONE', #186, 1000.000000000000000 ) ;
#113 = PRODUCT_DEFINITION_FORMATION_WITH_SPECIFIED_SOURCE ( 'ANY', '', #221, .NOT_KNOWN. ) ;
#114 = PLANE ( 'NONE',  #287 ) ;
#115 = AXIS2_PLACEMENT_3D ( 'NONE', #64, #22, #269 ) ;
#116 = FACE_OUTER_BOUND ( 'NONE', #94, .T. ) ;
#117 = EDGE_CURVE ( 'NONE', #54, #203, #160, .T. ) ;
#118 = CARTESIAN_POINT ( 'NONE',  ( -6.350000000000002309, 6.350000000000001421, 6.349999999999999645 ) ) ;
#119 =( NAMED_UNIT ( * ) SI_UNIT ( $, .STERADIAN. ) SOLID_ANGLE_UNIT ( ) );
#120 = ORIENTED_EDGE ( 'NONE', *, *, #243, .T. ) ;
#121 = VERTEX_POINT ( 'NONE', #134 ) ;
#122 = APPROVAL_PERSON_ORGANIZATION ( #254, #11, #126 ) ;
#123 = FACE_OUTER_BOUND ( 'NONE', #305, .T. ) ;
#124 = ORIENTED_EDGE ( 'NONE', *, *, #138, .F. ) ;
#125 = CALENDAR_DATE ( 2020, 22, 12 ) ;
#126 = APPROVAL_ROLE ( '' ) ;
#127 = VERTEX_POINT ( 'NONE', #143 ) ;
#128 = COORDINATED_UNIVERSAL_TIME_OFFSET ( 8, 0, .AHEAD. ) ;
#129 = EDGE_CURVE ( 'NONE', #130, #188, #312, .T. ) ;
#130 = VERTEX_POINT ( 'NONE', #133 ) ;
#131 = APPROVAL_STATUS ( 'not_yet_approved' ) ;
#132 = EDGE_CURVE ( 'NONE', #259, #72, #161, .T. ) ;
#133 = CARTESIAN_POINT ( 'NONE',  ( -6.350000000000002309, 6.350000000000001421, -6.349999999999999645 ) ) ;
#134 = CARTESIAN_POINT ( 'NONE',  ( 6.349999999999999645, -6.350000000000000533, -6.349999999999999645 ) ) ;
#135 = EDGE_CURVE ( 'NONE', #177, #121, #240, .T. ) ;
#136 = LINE ( 'NONE', #15, #317 ) ;
#137 = AXIS2_PLACEMENT_3D ( 'NONE', #62, #37, #245 ) ;
#138 = EDGE_CURVE ( 'NONE', #259, #177, #285, .T. ) ;
#139 = LINE ( 'NONE', #316, #247 ) ;
#140 = DIRECTION ( 'NONE',  ( 1.000000000000000000, -2.903408047666378392E-16, 0.000000000000000000 ) ) ;
#141 =( LENGTH_UNIT ( ) NAMED_UNIT ( * ) SI_UNIT ( .MILLI., .METRE. ) );
#142 = SHAPE_DEFINITION_REPRESENTATION ( #148, #156 ) ;
#143 = CARTESIAN_POINT ( 'NONE',  ( 6.349999999999998757, 6.349999999999998757, 6.349999999999999645 ) ) ;
#144 = ADVANCED_FACE ( 'NONE', ( #159 ), #264, .T. ) ;
#145 = DIRECTION ( 'NONE',  ( -1.000000000000000000, -6.829619984160658046E-17, 0.000000000000000000 ) ) ;
#146 = DIRECTION ( 'NONE',  ( 0.7071067811865474617, 0.7071067811865474617, 0.000000000000000000 ) ) ;
#147 = PLANE ( 'NONE',  #260 ) ;
#148 = PRODUCT_DEFINITION_SHAPE ( 'NONE', 'NONE',  #280 ) ;
#149 = CARTESIAN_POINT ( 'NONE',  ( 6.349999999999996980, 6.349999999999996980, 6.349999999999999645 ) ) ;
#150 = LOCAL_TIME ( 10, 10, 16.00000000000000000, #228 ) ;
#151 = COORDINATED_UNIVERSAL_TIME_OFFSET ( 8, 0, .AHEAD. ) ;
#152 = CC_DESIGN_PERSON_AND_ORGANIZATION_ASSIGNMENT ( #158, #257, ( #290 ) ) ;
#153 = ORIENTED_EDGE ( 'NONE', *, *, #52, .T. ) ;
#154 = CALENDAR_DATE ( 2020, 22, 12 ) ;
#155 = VECTOR ( 'NONE', #307, 1000.000000000000000 ) ;
#156 = ADVANCED_BREP_SHAPE_REPRESENTATION ( 'BK7-NPBSC-12.7-700-1000', ( #176, #65, #296 ), #171 ) ;
#157 = ORIENTED_EDGE ( 'NONE', *, *, #27, .F. ) ;
#158 = PERSON_AND_ORGANIZATION ( #84, #242 ) ;
#159 = FACE_OUTER_BOUND ( 'NONE', #304, .T. ) ;
#160 = LINE ( 'NONE', #42, #96 ) ;
#161 = LINE ( 'NONE', #238, #111 ) ;
#162 = EDGE_CURVE ( 'NONE', #72, #127, #218, .T. ) ;
#163 = EDGE_CURVE ( 'NONE', #54, #48, #210, .T. ) ;
#164 = DIRECTION ( 'NONE',  ( 0.000000000000000000, 0.000000000000000000, 1.000000000000000000 ) ) ;
#165 = DIRECTION ( 'NONE',  ( 1.000000000000000000, 0.000000000000000000, 0.000000000000000000 ) ) ;
#166 = CARTESIAN_POINT ( 'NONE',  ( 6.349999999999996980, 6.349999999999996980, -6.349999999999999645 ) ) ;
#167 = DIRECTION ( 'NONE',  ( -0.000000000000000000, -0.000000000000000000, -1.000000000000000000 ) ) ;
#168 = VECTOR ( 'NONE', #140, 1000.000000000000000 ) ;
#169 = ADVANCED_FACE ( 'NONE', ( #289 ), #286, .F. ) ;
#170 = CARTESIAN_POINT ( 'NONE',  ( 6.349999999999996980, 6.349999999999996980, 6.349999999999999645 ) ) ;
#171 =( GEOMETRIC_REPRESENTATION_CONTEXT ( 3 ) GLOBAL_UNCERTAINTY_ASSIGNED_CONTEXT ( ( #35 ) ) GLOBAL_UNIT_ASSIGNED_CONTEXT ( ( #141, #17, #119 ) ) REPRESENTATION_CONTEXT ( 'NONE', 'WORKASPACE' ) );
#172 = DIRECTION ( 'NONE',  ( 1.000000000000000000, -2.903408047666378392E-16, 0.000000000000000000 ) ) ;
#173 = ORIENTED_EDGE ( 'NONE', *, *, #20, .F. ) ;
#174 = DIRECTION ( 'NONE',  ( -2.220446049250312588E-16, 1.000000000000000000, 0.000000000000000000 ) ) ;
#175 = LINE ( 'NONE', #26, #314 ) ;
#176 = MANIFOLD_SOLID_BREP ( 'Í¹Ì¨-À', #230 ) ;
#177 = VERTEX_POINT ( 'NONE', #315 ) ;
#178 = CALENDAR_DATE ( 2020, 22, 12 ) ;
#179 = ORIENTED_EDGE ( 'NONE', *, *, #45, .T. ) ;
#180 = CALENDAR_DATE ( 2020, 22, 12 ) ;
#181 = EDGE_LOOP ( 'NONE', ( #278, #256, #294, #103 ) ) ;
#182 = APPROVAL_ROLE ( '' ) ;
#183 = DIRECTION ( 'NONE',  ( -0.000000000000000000, 0.000000000000000000, 1.000000000000000000 ) ) ;
#184 = EDGE_CURVE ( 'NONE', #193, #177, #136, .T. ) ;
#185 = CARTESIAN_POINT ( 'NONE',  ( 0.000000000000000000, 0.000000000000000000, -6.349999999999999645 ) ) ;
#186 = DIRECTION ( 'NONE',  ( -6.829619984160658046E-17, 1.000000000000000000, -0.000000000000000000 ) ) ;
#187 = EDGE_CURVE ( 'NONE', #127, #193, #293, .T. ) ;
#188 = VERTEX_POINT ( 'NONE', #166 ) ;
#189 = DIRECTION ( 'NONE',  ( -0.7071067811865475727, -0.7071067811865475727, 0.000000000000000000 ) ) ;
#190 = CARTESIAN_POINT ( 'NONE',  ( 6.349999999999996980, 6.349999999999996980, 6.349999999999999645 ) ) ;
#191 = DIRECTION ( 'NONE',  ( -0.7071067811865474617, -0.7071067811865474617, 0.000000000000000000 ) ) ;
#192 = CARTESIAN_POINT ( 'NONE',  ( 6.349999999999999645, -6.350000000000000533, 6.349999999999999645 ) ) ;
#193 = VERTEX_POINT ( 'NONE', #246 ) ;
#194 = ORIENTED_EDGE ( 'NONE', *, *, #20, .T. ) ;
#195 = DATE_TIME_ROLE ( 'classification_date' ) ;
#196 = ORIENTED_EDGE ( 'NONE', *, *, #243, .F. ) ;
#197 = PLANE ( 'NONE',  #215 ) ;
#198 = ADVANCED_FACE ( 'NONE', ( #123 ), #47, .F. ) ;
#199 = LINE ( 'NONE', #275, #201 ) ;
#200 = ORIENTED_EDGE ( 'NONE', *, *, #45, .F. ) ;
#201 = VECTOR ( 'NONE', #297, 1000.000000000000000 ) ;
#202 = AXIS2_PLACEMENT_3D ( 'NONE', #190, #25, #272 ) ;
#203 = VERTEX_POINT ( 'NONE', #295 ) ;
#204 = COORDINATED_UNIVERSAL_TIME_OFFSET ( 8, 0, .AHEAD. ) ;
#205 = VERTEX_POINT ( 'NONE', #216 ) ;
#206 = PERSON_AND_ORGANIZATION ( #84, #242 ) ;
#207 = ORIENTED_EDGE ( 'NONE', *, *, #52, .F. ) ;
#208 = DIRECTION ( 'NONE',  ( 1.000000000000000000, 0.000000000000000000, 0.000000000000000000 ) ) ;
#209 = EDGE_CURVE ( 'NONE', #48, #205, #49, .T. ) ;
#210 = LINE ( 'NONE', #39, #155 ) ;
#211 = CC_DESIGN_PERSON_AND_ORGANIZATION_ASSIGNMENT ( #206, #282, ( #113 ) ) ;
#212 = CARTESIAN_POINT ( 'NONE',  ( -6.349999999999998757, -6.349999999999997868, 6.349999999999999645 ) ) ;
#213 = APPLICATION_CONTEXT ( 'configuration controlled 3d designs of mechanical parts and assemblies' ) ;
#214 = CARTESIAN_POINT ( 'NONE',  ( 6.349999999999999645, -6.350000000000000533, 6.349999999999999645 ) ) ;
#215 = AXIS2_PLACEMENT_3D ( 'NONE', #67, #91, #146 ) ;
#216 = CARTESIAN_POINT ( 'NONE',  ( 6.349999999999996980, 6.349999999999996980, 6.349999999999999645 ) ) ;
#217 = VECTOR ( 'NONE', #167, 1000.000000000000000 ) ;
#218 = LINE ( 'NONE', #88, #112 ) ;
#219 = ORIENTED_EDGE ( 'NONE', *, *, #184, .F. ) ;
#220 = CARTESIAN_POINT ( 'NONE',  ( 0.000000000000000000, 0.000000000000000000, -6.349999999999999645 ) ) ;
#221 = PRODUCT ( 'BK7-NPBSC-12.7-700-1000', 'BK7-NPBSC-12.7-700-1000', '', ( #83 ) ) ;
#222 = ORIENTED_EDGE ( 'NONE', *, *, #3, .F. ) ;
#223 = FACE_OUTER_BOUND ( 'NONE', #50, .T. ) ;
#224 = ORIENTED_EDGE ( 'NONE', *, *, #308, .F. ) ;
#225 = DIRECTION ( 'NONE',  ( -1.000000000000000000, 2.903408047666378392E-16, 0.000000000000000000 ) ) ;
#226 = APPROVAL_STATUS ( 'not_yet_approved' ) ;
#227 = DATE_AND_TIME ( #178, #268 ) ;
#228 = COORDINATED_UNIVERSAL_TIME_OFFSET ( 8, 0, .AHEAD. ) ;
#229 = PERSON_AND_ORGANIZATION ( #84, #242 ) ;
#230 = CLOSED_SHELL ( 'NONE', ( #303, #169, #18, #321, #87 ) ) ;
#231 = APPLICATION_CONTEXT ( 'configuration controlled 3d designs of mechanical parts and assemblies' ) ;
#232 = EDGE_LOOP ( 'NONE', ( #106, #277, #29, #262 ) ) ;
#233 = APPROVAL_DATE_TIME ( #107, #263 ) ;
#234 = ORIENTED_EDGE ( 'NONE', *, *, #308, .T. ) ;
#235 = PERSON_AND_ORGANIZATION_ROLE ( 'creator' ) ;
#236 = CLOSED_SHELL ( 'NONE', ( #291, #70, #311, #144, #198 ) ) ;
#237 = LOCAL_TIME ( 10, 10, 16.00000000000000000, #204 ) ;
#238 = CARTESIAN_POINT ( 'NONE',  ( -6.349999999999999645, -6.350000000000000533, 6.349999999999999645 ) ) ;
#239 = CC_DESIGN_PERSON_AND_ORGANIZATION_ASSIGNMENT ( #104, #53, ( #280 ) ) ;
#240 = LINE ( 'NONE', #273, #241 ) ;
#241 = VECTOR ( 'NONE', #306, 1000.000000000000000 ) ;
#242 = ORGANIZATION ( 'UNSPECIFIED', 'UNSPECIFIED', '' ) ;
#243 = EDGE_CURVE ( 'NONE', #48, #130, #276, .T. ) ;
#244 = VECTOR ( 'NONE', #75, 1000.000000000000000 ) ;
#245 = DIRECTION ( 'NONE',  ( 0.000000000000000000, -0.000000000000000000, 1.000000000000000000 ) ) ;
#246 = CARTESIAN_POINT ( 'NONE',  ( 6.349999999999998757, 6.349999999999998757, -6.349999999999999645 ) ) ;
#247 = VECTOR ( 'NONE', #71, 1000.000000000000000 ) ;
#248 = ORIENTED_EDGE ( 'NONE', *, *, #184, .T. ) ;
#249 = APPLICATION_PROTOCOL_DEFINITION ( 'international standard', 'config_control_design', 1994, #213 ) ;
#250 = DIRECTION ( 'NONE',  ( 6.829619984160658046E-17, -1.000000000000000000, 0.000000000000000000 ) ) ;
#251 = FACE_OUTER_BOUND ( 'NONE', #97, .T. ) ;
#252 = LINE ( 'NONE', #319, #90 ) ;
#253 = CARTESIAN_POINT ( 'NONE',  ( -6.350000000000002309, 6.350000000000001421, 6.349999999999999645 ) ) ;
#254 = PERSON_AND_ORGANIZATION ( #84, #242 ) ;
#255 = CARTESIAN_POINT ( 'NONE',  ( 6.349999999999998757, 6.349999999999998757, -6.349999999999999645 ) ) ;
#256 = ORIENTED_EDGE ( 'NONE', *, *, #284, .F. ) ;
#257 = PERSON_AND_ORGANIZATION_ROLE ( 'classification_officer' ) ;
#258 = PERSON_AND_ORGANIZATION ( #84, #242 ) ;
#259 = VERTEX_POINT ( 'NONE', #13 ) ;
#260 = AXIS2_PLACEMENT_3D ( 'NONE', #46, #145, #250 ) ;
#261 = APPROVAL_ROLE ( '' ) ;
#262 = ORIENTED_EDGE ( 'NONE', *, *, #284, .T. ) ;
#263 = APPROVAL ( #79, 'UNSPECIFIED' ) ;
#264 = PLANE ( 'NONE',  #310 ) ;
#265 = VECTOR ( 'NONE', #172, 1000.000000000000000 ) ;
#266 = CARTESIAN_POINT ( 'NONE',  ( 6.349999999999996980, 6.349999999999996980, -6.349999999999999645 ) ) ;
#267 = FACE_OUTER_BOUND ( 'NONE', #300, .T. ) ;
#268 = LOCAL_TIME ( 10, 10, 16.00000000000000000, #28 ) ;
#269 = DIRECTION ( 'NONE',  ( 1.000000000000000000, 0.000000000000000000, 0.000000000000000000 ) ) ;
#270 = CARTESIAN_POINT ( 'NONE',  ( 0.000000000000000000, 0.000000000000000000, 6.349999999999999645 ) ) ;
#271 = CC_DESIGN_PERSON_AND_ORGANIZATION_ASSIGNMENT ( #6, #235, ( #113 ) ) ;
#272 = DIRECTION ( 'NONE',  ( 0.7071067811865475727, 0.7071067811865475727, 0.000000000000000000 ) ) ;
#273 = CARTESIAN_POINT ( 'NONE',  ( -6.349999999999999645, -6.350000000000000533, -6.349999999999999645 ) ) ;
#274 = DATE_AND_TIME ( #298, #150 ) ;
#275 = CARTESIAN_POINT ( 'NONE',  ( 6.349999999999996980, 6.349999999999996980, 6.349999999999999645 ) ) ;
#276 = LINE ( 'NONE', #253, #302 ) ;
#277 = ORIENTED_EDGE ( 'NONE', *, *, #187, .F. ) ;
#278 = ORIENTED_EDGE ( 'NONE', *, *, #135, .T. ) ;
#279 = APPROVAL_DATE_TIME ( #281, #313 ) ;
#280 = PRODUCT_DEFINITION ( 'UNKNOWN', '', #113, #68 ) ;
#281 = DATE_AND_TIME ( #125, #51 ) ;
#282 = PERSON_AND_ORGANIZATION_ROLE ( 'design_supplier' ) ;
#283 = APPROVAL_PERSON_ORGANIZATION ( #229, #263, #261 ) ;
#284 = EDGE_CURVE ( 'NONE', #72, #121, #73, .T. ) ;
#285 = LINE ( 'NONE', #59, #4 ) ;
#286 = PLANE ( 'NONE',  #137 ) ;
#287 = AXIS2_PLACEMENT_3D ( 'NONE', #36, #63, #44 ) ;
#288 = AXIS2_PLACEMENT_3D ( 'NONE', #170, #43, #225 ) ;
#289 = FACE_OUTER_BOUND ( 'NONE', #181, .T. ) ;
#290 = SECURITY_CLASSIFICATION ( '', '', #58 ) ;
#291 = ADVANCED_FACE ( 'NONE', ( #116 ), #41, .F. ) ;
#292 = PLANE ( 'NONE',  #288 ) ;
#293 = LINE ( 'NONE', #69, #217 ) ;
#294 = ORIENTED_EDGE ( 'NONE', *, *, #132, .F. ) ;
#295 = CARTESIAN_POINT ( 'NONE',  ( -6.349999999999998757, -6.349999999999997868, -6.349999999999999645 ) ) ;
#296 = AXIS2_PLACEMENT_3D ( 'NONE', #55, #34, #76 ) ;
#297 = DIRECTION ( 'NONE',  ( 0.000000000000000000, 0.000000000000000000, -1.000000000000000000 ) ) ;
#298 = CALENDAR_DATE ( 2020, 22, 12 ) ;
#299 = ORIENTED_EDGE ( 'NONE', *, *, #129, .F. ) ;
#300 = EDGE_LOOP ( 'NONE', ( #219, #157, #32 ) ) ;
#301 = DATE_AND_TIME ( #180, #14 ) ;
#302 = VECTOR ( 'NONE', #93, 1000.000000000000000 ) ;
#303 = ADVANCED_FACE ( 'NONE', ( #100 ), #197, .F. ) ;
#304 = EDGE_LOOP ( 'NONE', ( #200, #7, #85 ) ) ;
#305 = EDGE_LOOP ( 'NONE', ( #194, #234, #33 ) ) ;
#306 = DIRECTION ( 'NONE',  ( 1.000000000000000000, 0.000000000000000000, 0.000000000000000000 ) ) ;
#307 = DIRECTION ( 'NONE',  ( -2.220446049250312588E-16, 1.000000000000000000, 0.000000000000000000 ) ) ;
#308 = EDGE_CURVE ( 'NONE', #203, #130, #139, .T. ) ;
#309 = PLANE ( 'NONE',  #56 ) ;
#310 = AXIS2_PLACEMENT_3D ( 'NONE', #270, #9, #89 ) ;
#311 = ADVANCED_FACE ( 'NONE', ( #251 ), #292, .F. ) ;
#312 = LINE ( 'NONE', #266, #168 ) ;
#313 = APPROVAL ( #131, 'UNSPECIFIED' ) ;
#314 = VECTOR ( 'NONE', #189, 999.9999999999998863 ) ;
#315 = CARTESIAN_POINT ( 'NONE',  ( -6.349999999999999645, -6.350000000000000533, -6.349999999999999645 ) ) ;
#316 = CARTESIAN_POINT ( 'NONE',  ( -6.349999999999998757, -6.349999999999997868, -6.349999999999999645 ) ) ;
#317 = VECTOR ( 'NONE', #191, 1000.000000000000114 ) ;
#318 = EDGE_LOOP ( 'NONE', ( #224, #23, #77, #120 ) ) ;
#319 = CARTESIAN_POINT ( 'NONE',  ( 6.349999999999996980, 6.349999999999996980, -6.349999999999999645 ) ) ;
#320 = PLANE ( 'NONE',  #115 ) ;
#321 = ADVANCED_FACE ( 'NONE', ( #223 ), #320, .T. ) ;
ENDSEC;
END-ISO-10303-21;
